ISO-10303-21;
HEADER;
FILE_DESCRIPTION (( 'STEP AP203' ),
    '1' );
FILE_NAME ('BK7-LPBSC-12.7-780.STEP',
    '2020-12-22T03:12:01',
    ( '' ),
    ( '' ),
    'SwSTEP 2.0',
    'SolidWorks 2020',
    '' );
FILE_SCHEMA (( 'CONFIG_CONTROL_DESIGN' ));
ENDSEC;

DATA;
#1 = ORIENTED_EDGE ( 'NONE', *, *, #86, .T. ) ;
#2 = CARTESIAN_POINT ( 'NONE',  ( 6.349999999999999645, -6.350000000000000533, -6.349999999999999645 ) ) ;
#3 = ORIENTED_EDGE ( 'NONE', *, *, #270, .T. ) ;
#4 = FACE_OUTER_BOUND ( 'NONE', #221, .T. ) ;
#5 = APPROVAL ( #289, 'UNSPECIFIED' ) ;
#6 = APPROVAL_ROLE ( '' ) ;
#7 = VERTEX_POINT ( 'NONE', #195 ) ;
#8 = LINE ( 'NONE', #98, #257 ) ;
#9 = CARTESIAN_POINT ( 'NONE',  ( 6.349999999999996980, 6.349999999999996980, 6.349999999999999645 ) ) ;
#10 = PERSON_AND_ORGANIZATION_ROLE ( 'classification_officer' ) ;
#11 = CARTESIAN_POINT ( 'NONE',  ( -6.349999999999999645, -6.350000000000000533, 6.349999999999999645 ) ) ;
#12 = VECTOR ( 'NONE', #43, 1000.000000000000000 ) ;
#13 = DIRECTION ( 'NONE',  ( -2.220446049250312588E-16, 1.000000000000000000, 0.000000000000000000 ) ) ;
#14 = CARTESIAN_POINT ( 'NONE',  ( -6.350000000000002309, 6.350000000000001421, 6.349999999999999645 ) ) ;
#15 = PRODUCT_RELATED_PRODUCT_CATEGORY ( 'detail', '', ( #51 ) ) ;
#16 = ORIENTED_EDGE ( 'NONE', *, *, #196, .F. ) ;
#17 = VERTEX_POINT ( 'NONE', #296 ) ;
#18 = PERSON_AND_ORGANIZATION_ROLE ( 'creator' ) ;
#19 = FACE_OUTER_BOUND ( 'NONE', #23, .T. ) ;
#20 = ORIENTED_EDGE ( 'NONE', *, *, #135, .T. ) ;
#21 = PLANE ( 'NONE',  #162 ) ;
#22 = EDGE_CURVE ( 'NONE', #316, #290, #67, .T. ) ;
#23 = EDGE_LOOP ( 'NONE', ( #47, #217, #64, #151 ) ) ;
#24 = LINE ( 'NONE', #9, #12 ) ;
#25 = PERSON_AND_ORGANIZATION ( #272, #84 ) ;
#26 = ORIENTED_EDGE ( 'NONE', *, *, #71, .T. ) ;
#27 = FACE_OUTER_BOUND ( 'NONE', #263, .T. ) ;
#28 = APPROVAL_DATE_TIME ( #304, #5 ) ;
#29 = VECTOR ( 'NONE', #105, 1000.000000000000000 ) ;
#30 = LINE ( 'NONE', #199, #216 ) ;
#31 = CARTESIAN_POINT ( 'NONE',  ( 6.349999999999998757, 6.349999999999998757, -6.349999999999999645 ) ) ;
#32 = APPROVAL ( #70, 'UNSPECIFIED' ) ;
#33 = SECURITY_CLASSIFICATION ( '', '', #127 ) ;
#34 = CARTESIAN_POINT ( 'NONE',  ( -6.349999999999998757, -6.349999999999997868, -6.349999999999999645 ) ) ;
#35 = FACE_OUTER_BOUND ( 'NONE', #201, .T. ) ;
#36 = CC_DESIGN_APPROVAL ( #56, ( #101 ) ) ;
#37 = ORIENTED_EDGE ( 'NONE', *, *, #112, .T. ) ;
#38 = DIRECTION ( 'NONE',  ( 0.000000000000000000, 0.000000000000000000, 1.000000000000000000 ) ) ;
#39 = ORIENTED_EDGE ( 'NONE', *, *, #248, .F. ) ;
#40 = CC_DESIGN_PERSON_AND_ORGANIZATION_ASSIGNMENT ( #200, #10, ( #33 ) ) ;
#41 = ORIENTED_EDGE ( 'NONE', *, *, #86, .F. ) ;
#42 = CARTESIAN_POINT ( 'NONE',  ( -6.349999999999998757, -6.349999999999997868, 6.349999999999999645 ) ) ;
#43 = DIRECTION ( 'NONE',  ( 0.000000000000000000, 0.000000000000000000, -1.000000000000000000 ) ) ;
#44 = PERSON_AND_ORGANIZATION ( #272, #84 ) ;
#45 = CLOSED_SHELL ( 'NONE', ( #172, #315, #214, #233, #136 ) ) ;
#46 = VECTOR ( 'NONE', #107, 999.9999999999998863 ) ;
#47 = ORIENTED_EDGE ( 'NONE', *, *, #278, .F. ) ;
#48 = CARTESIAN_POINT ( 'NONE',  ( 6.349999999999996980, 6.349999999999996980, 6.349999999999999645 ) ) ;
#49 = COORDINATED_UNIVERSAL_TIME_OFFSET ( 8, 0, .AHEAD. ) ;
#50 = DIRECTION ( 'NONE',  ( -1.000000000000000000, -6.829619984160658046E-17, 0.000000000000000000 ) ) ;
#51 = PRODUCT ( 'BK7-LPBSC-12.7-780', 'BK7-LPBSC-12.7-780', '', ( #319 ) ) ;
#52 = PERSON_AND_ORGANIZATION_ROLE ( 'design_supplier' ) ;
#53 = CARTESIAN_POINT ( 'NONE',  ( 6.349999999999996980, 6.349999999999996980, 6.349999999999999645 ) ) ;
#54 = LOCAL_TIME ( 11, 12, 1.000000000000000000, #231 ) ;
#55 = LINE ( 'NONE', #31, #110 ) ;
#56 = APPROVAL ( #197, 'UNSPECIFIED' ) ;
#57 = CARTESIAN_POINT ( 'NONE',  ( -6.349999999999999645, -6.350000000000000533, 6.349999999999999645 ) ) ;
#58 = CARTESIAN_POINT ( 'NONE',  ( -6.349999999999998757, -6.349999999999997868, 6.349999999999999645 ) ) ;
#59 = ORIENTED_EDGE ( 'NONE', *, *, #80, .T. ) ;
#60 = AXIS2_PLACEMENT_3D ( 'NONE', #102, #50, #251 ) ;
#61 = DIRECTION ( 'NONE',  ( -0.000000000000000000, -0.000000000000000000, -1.000000000000000000 ) ) ;
#62 = UNCERTAINTY_MEASURE_WITH_UNIT (LENGTH_MEASURE( 1.000000000000000082E-05 ), #66, 'distance_accuracy_value', 'NONE');
#63 = APPROVAL_ROLE ( '' ) ;
#64 = ORIENTED_EDGE ( 'NONE', *, *, #248, .T. ) ;
#65 = EDGE_CURVE ( 'NONE', #83, #301, #24, .T. ) ;
#66 =( LENGTH_UNIT ( ) NAMED_UNIT ( * ) SI_UNIT ( .MILLI., .METRE. ) );
#67 = LINE ( 'NONE', #171, #114 ) ;
#68 = DIRECTION ( 'NONE',  ( 1.000000000000000000, 0.000000000000000000, 0.000000000000000000 ) ) ;
#69 = CARTESIAN_POINT ( 'NONE',  ( -6.350000000000002309, 6.350000000000001421, 6.349999999999999645 ) ) ;
#70 = APPROVAL_STATUS ( 'not_yet_approved' ) ;
#71 = EDGE_CURVE ( 'NONE', #240, #83, #271, .T. ) ;
#72 = PLANE ( 'NONE',  #60 ) ;
#73 = CARTESIAN_POINT ( 'NONE',  ( -6.349999999999998757, -6.349999999999997868, 6.349999999999999645 ) ) ;
#74 = DIRECTION ( 'NONE',  ( -0.7071067811865474617, -0.7071067811865474617, 0.000000000000000000 ) ) ;
#75 = AXIS2_PLACEMENT_3D ( 'NONE', #79, #81, #161 ) ;
#76 = LINE ( 'NONE', #92, #287 ) ;
#77 = DIRECTION ( 'NONE',  ( 0.000000000000000000, 1.000000000000000000, 0.000000000000000000 ) ) ;
#78 = LOCAL_TIME ( 11, 12, 1.000000000000000000, #206 ) ;
#79 = CARTESIAN_POINT ( 'NONE',  ( 0.000000000000000000, 0.000000000000000000, 6.349999999999999645 ) ) ;
#80 = EDGE_CURVE ( 'NONE', #173, #145, #30, .T. ) ;
#81 = DIRECTION ( 'NONE',  ( 0.000000000000000000, 0.000000000000000000, 1.000000000000000000 ) ) ;
#82 = EDGE_LOOP ( 'NONE', ( #141, #1, #293 ) ) ;
#83 = VERTEX_POINT ( 'NONE', #129 ) ;
#84 = ORGANIZATION ( 'UNSPECIFIED', 'UNSPECIFIED', '' ) ;
#85 = DATE_TIME_ROLE ( 'creation_date' ) ;
#86 = EDGE_CURVE ( 'NONE', #95, #316, #180, .T. ) ;
#87 = MANIFOLD_SOLID_BREP ( 'Í¹Ì¨-À', #120 ) ;
#88 = APPLICATION_PROTOCOL_DEFINITION ( 'international standard', 'config_control_design', 1994, #108 ) ;
#89 = APPLICATION_PROTOCOL_DEFINITION ( 'international standard', 'config_control_design', 1994, #187 ) ;
#90 = EDGE_LOOP ( 'NONE', ( #140, #285, #163, #97 ) ) ;
#91 = VECTOR ( 'NONE', #68, 1000.000000000000000 ) ;
#92 = CARTESIAN_POINT ( 'NONE',  ( 6.349999999999998757, 6.349999999999998757, 6.349999999999999645 ) ) ;
#93 = ORIENTED_EDGE ( 'NONE', *, *, #135, .F. ) ;
#94 = DATE_AND_TIME ( #169, #275 ) ;
#95 = VERTEX_POINT ( 'NONE', #11 ) ;
#96 = PLANE ( 'NONE',  #321 ) ;
#97 = ORIENTED_EDGE ( 'NONE', *, *, #22, .T. ) ;
#98 = CARTESIAN_POINT ( 'NONE',  ( 6.349999999999998757, 6.349999999999998757, 6.349999999999999645 ) ) ;
#99 = DATE_TIME_ROLE ( 'classification_date' ) ;
#100 = VECTOR ( 'NONE', #13, 1000.000000000000000 ) ;
#101 = PRODUCT_DEFINITION ( 'UNKNOWN', '', #121, #259 ) ;
#102 = CARTESIAN_POINT ( 'NONE',  ( 6.349999999999998757, 6.349999999999998757, 6.349999999999999645 ) ) ;
#103 = DIRECTION ( 'NONE',  ( 0.7071067811865475727, 0.7071067811865475727, 0.000000000000000000 ) ) ;
#104 = ADVANCED_FACE ( 'NONE', ( #156 ), #254, .T. ) ;
#105 = DIRECTION ( 'NONE',  ( 1.000000000000000000, -2.903408047666378392E-16, 0.000000000000000000 ) ) ;
#106 = AXIS2_PLACEMENT_3D ( 'NONE', #269, #38, #142 ) ;
#107 = DIRECTION ( 'NONE',  ( -0.7071067811865475727, -0.7071067811865475727, 0.000000000000000000 ) ) ;
#108 = APPLICATION_CONTEXT ( 'configuration controlled 3d designs of mechanical parts and assemblies' ) ;
#109 = PLANE ( 'NONE',  #302 ) ;
#110 = VECTOR ( 'NONE', #133, 1000.000000000000000 ) ;
#111 = LINE ( 'NONE', #213, #46 ) ;
#112 = EDGE_CURVE ( 'NONE', #83, #173, #246, .T. ) ;
#113 = ORIENTED_EDGE ( 'NONE', *, *, #65, .T. ) ;
#114 = VECTOR ( 'NONE', #198, 1000.000000000000000 ) ;
#115 = CC_DESIGN_APPROVAL ( #32, ( #33 ) ) ;
#116 = DIRECTION ( 'NONE',  ( 0.000000000000000000, 0.000000000000000000, -1.000000000000000000 ) ) ;
#117 =( NAMED_UNIT ( * ) SI_UNIT ( $, .STERADIAN. ) SOLID_ANGLE_UNIT ( ) );
#118 = CC_DESIGN_PERSON_AND_ORGANIZATION_ASSIGNMENT ( #320, #291, ( #51 ) ) ;
#119 = ORIENTED_EDGE ( 'NONE', *, *, #278, .T. ) ;
#120 = CLOSED_SHELL ( 'NONE', ( #273, #210, #158, #104, #264 ) ) ;
#121 = PRODUCT_DEFINITION_FORMATION_WITH_SPECIFIED_SOURCE ( 'ANY', '', #51, .NOT_KNOWN. ) ;
#122 = APPROVAL_DATE_TIME ( #94, #56 ) ;
#123 = LINE ( 'NONE', #225, #209 ) ;
#124 = CALENDAR_DATE ( 2020, 22, 12 ) ;
#125 = CARTESIAN_POINT ( 'NONE',  ( 6.349999999999996980, 6.349999999999996980, 6.349999999999999645 ) ) ;
#126 = CC_DESIGN_PERSON_AND_ORGANIZATION_ASSIGNMENT ( #44, #18, ( #101 ) ) ;
#127 = SECURITY_CLASSIFICATION_LEVEL ( 'unclassified' ) ;
#128 = DIRECTION ( 'NONE',  ( -0.7071067811865475727, 0.7071067811865475727, 0.000000000000000000 ) ) ;
#129 = CARTESIAN_POINT ( 'NONE',  ( 6.349999999999996980, 6.349999999999996980, 6.349999999999999645 ) ) ;
#130 = CC_DESIGN_PERSON_AND_ORGANIZATION_ASSIGNMENT ( #250, #52, ( #121 ) ) ;
#131 = DIRECTION ( 'NONE',  ( 0.000000000000000000, -0.000000000000000000, 1.000000000000000000 ) ) ;
#132 = LOCAL_TIME ( 11, 12, 1.000000000000000000, #149 ) ;
#133 = DIRECTION ( 'NONE',  ( -6.829619984160658046E-17, 1.000000000000000000, -0.000000000000000000 ) ) ;
#134 = LINE ( 'NONE', #310, #239 ) ;
#135 = EDGE_CURVE ( 'NONE', #244, #290, #123, .T. ) ;
#136 = ADVANCED_FACE ( 'NONE', ( #4 ), #96, .F. ) ;
#137 = VECTOR ( 'NONE', #280, 1000.000000000000000 ) ;
#138 = DIRECTION ( 'NONE',  ( -2.220446049250312588E-16, 1.000000000000000000, 0.000000000000000000 ) ) ;
#139 = EDGE_CURVE ( 'NONE', #316, #17, #8, .T. ) ;
#140 = ORIENTED_EDGE ( 'NONE', *, *, #185, .T. ) ;
#141 = ORIENTED_EDGE ( 'NONE', *, *, #181, .T. ) ;
#142 = DIRECTION ( 'NONE',  ( 1.000000000000000000, 0.000000000000000000, 0.000000000000000000 ) ) ;
#143 = ORIENTED_EDGE ( 'NONE', *, *, #196, .T. ) ;
#144 = LINE ( 'NONE', #69, #262 ) ;
#145 = VERTEX_POINT ( 'NONE', #207 ) ;
#146 = EDGE_LOOP ( 'NONE', ( #20, #268, #41, #3 ) ) ;
#147 = CARTESIAN_POINT ( 'NONE',  ( 0.000000000000000000, 0.000000000000000000, 6.349999999999999645 ) ) ;
#148 =( GEOMETRIC_REPRESENTATION_CONTEXT ( 3 ) GLOBAL_UNCERTAINTY_ASSIGNED_CONTEXT ( ( #62 ) ) GLOBAL_UNIT_ASSIGNED_CONTEXT ( ( #66, #218, #117 ) ) REPRESENTATION_CONTEXT ( 'NONE', 'WORKASPACE' ) );
#149 = COORDINATED_UNIVERSAL_TIME_OFFSET ( 8, 0, .AHEAD. ) ;
#150 = CC_DESIGN_PERSON_AND_ORGANIZATION_ASSIGNMENT ( #25, #152, ( #121 ) ) ;
#151 = ORIENTED_EDGE ( 'NONE', *, *, #294, .T. ) ;
#152 = PERSON_AND_ORGANIZATION_ROLE ( 'creator' ) ;
#153 = DIRECTION ( 'NONE',  ( 1.000000000000000000, -2.903408047666378392E-16, 0.000000000000000000 ) ) ;
#154 = APPROVAL_DATE_TIME ( #305, #32 ) ;
#155 = CARTESIAN_POINT ( 'NONE',  ( 6.349999999999998757, 6.349999999999998757, 6.349999999999999645 ) ) ;
#156 = FACE_OUTER_BOUND ( 'NONE', #82, .T. ) ;
#157 = FACE_OUTER_BOUND ( 'NONE', #146, .T. ) ;
#158 = ADVANCED_FACE ( 'NONE', ( #303 ), #72, .F. ) ;
#159 = DIRECTION ( 'NONE',  ( 0.7071067811865474617, 0.7071067811865474617, 0.000000000000000000 ) ) ;
#160 = LINE ( 'NONE', #34, #245 ) ;
#161 = DIRECTION ( 'NONE',  ( -2.220446049250312588E-16, 1.000000000000000000, 0.000000000000000000 ) ) ;
#162 = AXIS2_PLACEMENT_3D ( 'NONE', #42, #241, #295 ) ;
#163 = ORIENTED_EDGE ( 'NONE', *, *, #139, .F. ) ;
#164 = ORIENTED_EDGE ( 'NONE', *, *, #71, .F. ) ;
#165 = CARTESIAN_POINT ( 'NONE',  ( 6.349999999999996980, 6.349999999999996980, -6.349999999999999645 ) ) ;
#166 = ORIENTED_EDGE ( 'NONE', *, *, #255, .T. ) ;
#167 = AXIS2_PLACEMENT_3D ( 'NONE', #57, #77, #131 ) ;
#168 = CC_DESIGN_DATE_AND_TIME_ASSIGNMENT ( #317, #85, ( #101 ) ) ;
#169 = CALENDAR_DATE ( 2020, 22, 12 ) ;
#170 = CARTESIAN_POINT ( 'NONE',  ( 6.349999999999999645, -6.350000000000000533, 6.349999999999999645 ) ) ;
#171 = CARTESIAN_POINT ( 'NONE',  ( 6.349999999999999645, -6.350000000000000533, 6.349999999999999645 ) ) ;
#172 = ADVANCED_FACE ( 'NONE', ( #27 ), #276, .F. ) ;
#173 = VERTEX_POINT ( 'NONE', #73 ) ;
#174 = DIRECTION ( 'NONE',  ( -0.000000000000000000, 0.000000000000000000, 1.000000000000000000 ) ) ;
#175 = CC_DESIGN_APPROVAL ( #5, ( #121 ) ) ;
#176 = APPROVAL_ROLE ( '' ) ;
#177 = CARTESIAN_POINT ( 'NONE',  ( -6.349999999999999645, -6.350000000000000533, 6.349999999999999645 ) ) ;
#178 = CALENDAR_DATE ( 2020, 22, 12 ) ;
#179 = LINE ( 'NONE', #155, #292 ) ;
#180 = LINE ( 'NONE', #177, #91 ) ;
#181 = EDGE_CURVE ( 'NONE', #17, #95, #179, .T. ) ;
#182 = APPROVAL_PERSON_ORGANIZATION ( #193, #56, #63 ) ;
#183 = CARTESIAN_POINT ( 'NONE',  ( -6.349999999999999645, -6.350000000000000533, -6.349999999999999645 ) ) ;
#184 = FACE_OUTER_BOUND ( 'NONE', #192, .T. ) ;
#185 = EDGE_CURVE ( 'NONE', #290, #189, #55, .T. ) ;
#186 = CARTESIAN_POINT ( 'NONE',  ( 6.349999999999998757, 6.349999999999998757, 6.349999999999999645 ) ) ;
#187 = APPLICATION_CONTEXT ( 'configuration controlled 3d designs of mechanical parts and assemblies' ) ;
#188 = DIRECTION ( 'NONE',  ( -0.000000000000000000, 0.000000000000000000, 1.000000000000000000 ) ) ;
#189 = VERTEX_POINT ( 'NONE', #238 ) ;
#190 = AXIS2_PLACEMENT_3D ( 'NONE', #53, #128, #103 ) ;
#191 = PERSON_AND_ORGANIZATION ( #272, #84 ) ;
#192 = EDGE_LOOP ( 'NONE', ( #16, #288, #93 ) ) ;
#193 = PERSON_AND_ORGANIZATION ( #272, #84 ) ;
#194 = VECTOR ( 'NONE', #249, 999.9999999999998863 ) ;
#195 = CARTESIAN_POINT ( 'NONE',  ( -6.350000000000002309, 6.350000000000001421, -6.349999999999999645 ) ) ;
#196 = EDGE_CURVE ( 'NONE', #189, #244, #134, .T. ) ;
#197 = APPROVAL_STATUS ( 'not_yet_approved' ) ;
#198 = DIRECTION ( 'NONE',  ( -0.000000000000000000, -0.000000000000000000, -1.000000000000000000 ) ) ;
#199 = CARTESIAN_POINT ( 'NONE',  ( -6.349999999999998757, -6.349999999999997868, 6.349999999999999645 ) ) ;
#200 = PERSON_AND_ORGANIZATION ( #272, #84 ) ;
#201 = EDGE_LOOP ( 'NONE', ( #143, #226, #224, #274 ) ) ;
#202 = AXIS2_PLACEMENT_3D ( 'NONE', #311, #188, #284 ) ;
#203 = DIRECTION ( 'NONE',  ( -6.829619984160658046E-17, 1.000000000000000000, -0.000000000000000000 ) ) ;
#204 = PERSON_AND_ORGANIZATION ( #272, #84 ) ;
#205 = MANIFOLD_SOLID_BREP ( '¾µÏ', #45 ) ;
#206 = COORDINATED_UNIVERSAL_TIME_OFFSET ( 8, 0, .AHEAD. ) ;
#207 = CARTESIAN_POINT ( 'NONE',  ( -6.349999999999998757, -6.349999999999997868, -6.349999999999999645 ) ) ;
#208 = PLANE ( 'NONE',  #167 ) ;
#209 = VECTOR ( 'NONE', #230, 1000.000000000000000 ) ;
#210 = ADVANCED_FACE ( 'NONE', ( #157 ), #208, .F. ) ;
#211 = PLANE ( 'NONE',  #202 ) ;
#212 = PLANE ( 'NONE',  #277 ) ;
#213 = CARTESIAN_POINT ( 'NONE',  ( 6.349999999999996980, 6.349999999999996980, -6.349999999999999645 ) ) ;
#214 = ADVANCED_FACE ( 'NONE', ( #312 ), #212, .F. ) ;
#215 = CALENDAR_DATE ( 2020, 22, 12 ) ;
#216 = VECTOR ( 'NONE', #297, 1000.000000000000000 ) ;
#217 = ORIENTED_EDGE ( 'NONE', *, *, #80, .F. ) ;
#218 =( NAMED_UNIT ( * ) PLANE_ANGLE_UNIT ( ) SI_UNIT ( $, .RADIAN. ) );
#219 = ORIENTED_EDGE ( 'NONE', *, *, #255, .F. ) ;
#220 = PRODUCT_DEFINITION_SHAPE ( 'NONE', 'NONE',  #101 ) ;
#221 = EDGE_LOOP ( 'NONE', ( #166, #119, #318 ) ) ;
#222 = ORIENTED_EDGE ( 'NONE', *, *, #112, .F. ) ;
#223 = APPROVAL_PERSON_ORGANIZATION ( #191, #5, #6 ) ;
#224 = ORIENTED_EDGE ( 'NONE', *, *, #181, .F. ) ;
#225 = CARTESIAN_POINT ( 'NONE',  ( -6.349999999999999645, -6.350000000000000533, -6.349999999999999645 ) ) ;
#226 = ORIENTED_EDGE ( 'NONE', *, *, #270, .F. ) ;
#227 = CARTESIAN_POINT ( 'NONE',  ( 0.000000000000000000, 0.000000000000000000, -6.349999999999999645 ) ) ;
#228 = DATE_AND_TIME ( #124, #78 ) ;
#229 = AXIS2_PLACEMENT_3D ( 'NONE', #147, #174, #299 ) ;
#230 = DIRECTION ( 'NONE',  ( 1.000000000000000000, 0.000000000000000000, 0.000000000000000000 ) ) ;
#231 = COORDINATED_UNIVERSAL_TIME_OFFSET ( 8, 0, .AHEAD. ) ;
#232 = DIRECTION ( 'NONE',  ( -2.220446049250312588E-16, 1.000000000000000000, 0.000000000000000000 ) ) ;
#233 = ADVANCED_FACE ( 'NONE', ( #283 ), #236, .T. ) ;
#234 = DIRECTION ( 'NONE',  ( -2.903408047666378392E-16, -1.000000000000000000, 0.000000000000000000 ) ) ;
#235 = ADVANCED_BREP_SHAPE_REPRESENTATION ( 'BK7-LPBSC-12.7-780', ( #87, #205, #106 ), #148 ) ;
#236 = PLANE ( 'NONE',  #75 ) ;
#237 = DIRECTION ( 'NONE',  ( -1.000000000000000000, 2.903408047666378392E-16, 0.000000000000000000 ) ) ;
#238 = CARTESIAN_POINT ( 'NONE',  ( 6.349999999999998757, 6.349999999999998757, -6.349999999999999645 ) ) ;
#239 = VECTOR ( 'NONE', #314, 1000.000000000000114 ) ;
#240 = VERTEX_POINT ( 'NONE', #14 ) ;
#241 = DIRECTION ( 'NONE',  ( 1.000000000000000000, -2.220446049250312588E-16, 0.000000000000000000 ) ) ;
#242 = ORIENTED_EDGE ( 'NONE', *, *, #294, .F. ) ;
#243 = COORDINATED_UNIVERSAL_TIME_OFFSET ( 8, 0, .AHEAD. ) ;
#244 = VERTEX_POINT ( 'NONE', #183 ) ;
#245 = VECTOR ( 'NONE', #138, 1000.000000000000000 ) ;
#246 = LINE ( 'NONE', #48, #194 ) ;
#247 = ORIENTED_EDGE ( 'NONE', *, *, #65, .F. ) ;
#248 = EDGE_CURVE ( 'NONE', #173, #240, #279, .T. ) ;
#249 = DIRECTION ( 'NONE',  ( -0.7071067811865475727, -0.7071067811865475727, 0.000000000000000000 ) ) ;
#250 = PERSON_AND_ORGANIZATION ( #272, #84 ) ;
#251 = DIRECTION ( 'NONE',  ( 6.829619984160658046E-17, -1.000000000000000000, 0.000000000000000000 ) ) ;
#252 = CALENDAR_DATE ( 2020, 22, 12 ) ;
#253 = VECTOR ( 'NONE', #153, 1000.000000000000000 ) ;
#254 = PLANE ( 'NONE',  #229 ) ;
#255 = EDGE_CURVE ( 'NONE', #301, #145, #111, .T. ) ;
#256 = CARTESIAN_POINT ( 'NONE',  ( 6.349999999999996980, 6.349999999999996980, 6.349999999999999645 ) ) ;
#257 = VECTOR ( 'NONE', #203, 1000.000000000000000 ) ;
#258 = LINE ( 'NONE', #308, #29 ) ;
#259 = DESIGN_CONTEXT ( 'detailed design', #187, 'design' ) ;
#260 = CARTESIAN_POINT ( 'NONE',  ( -6.349999999999999645, -6.350000000000000533, 6.349999999999999645 ) ) ;
#261 = LINE ( 'NONE', #260, #137 ) ;
#262 = VECTOR ( 'NONE', #116, 1000.000000000000000 ) ;
#263 = EDGE_LOOP ( 'NONE', ( #219, #247, #37, #59 ) ) ;
#264 = ADVANCED_FACE ( 'NONE', ( #184 ), #211, .F. ) ;
#265 = ORIENTED_EDGE ( 'NONE', *, *, #282, .F. ) ;
#266 = APPROVAL_PERSON_ORGANIZATION ( #204, #32, #176 ) ;
#267 = EDGE_LOOP ( 'NONE', ( #265, #242, #26, #113 ) ) ;
#268 = ORIENTED_EDGE ( 'NONE', *, *, #22, .F. ) ;
#269 = CARTESIAN_POINT ( 'NONE',  ( 0.000000000000000000, 0.000000000000000000, 0.000000000000000000 ) ) ;
#270 = EDGE_CURVE ( 'NONE', #95, #244, #261, .T. ) ;
#271 = LINE ( 'NONE', #125, #253 ) ;
#272 = PERSON ( 'UNSPECIFIED', 'UNSPECIFIED', 'UNSPECIFIED', ('UNSPECIFIED'), ('UNSPECIFIED'), ('UNSPECIFIED') ) ;
#273 = ADVANCED_FACE ( 'NONE', ( #35 ), #109, .F. ) ;
#274 = ORIENTED_EDGE ( 'NONE', *, *, #286, .T. ) ;
#275 = LOCAL_TIME ( 11, 12, 1.000000000000000000, #243 ) ;
#276 = PLANE ( 'NONE',  #190 ) ;
#277 = AXIS2_PLACEMENT_3D ( 'NONE', #256, #234, #237 ) ;
#278 = EDGE_CURVE ( 'NONE', #145, #7, #160, .T. ) ;
#279 = LINE ( 'NONE', #58, #100 ) ;
#280 = DIRECTION ( 'NONE',  ( -0.000000000000000000, -0.000000000000000000, -1.000000000000000000 ) ) ;
#281 = DIRECTION ( 'NONE',  ( 0.7071067811865475727, -0.7071067811865475727, 0.000000000000000000 ) ) ;
#282 = EDGE_CURVE ( 'NONE', #7, #301, #258, .T. ) ;
#283 = FACE_OUTER_BOUND ( 'NONE', #298, .T. ) ;
#284 = DIRECTION ( 'NONE',  ( 1.000000000000000000, 0.000000000000000000, 0.000000000000000000 ) ) ;
#285 = ORIENTED_EDGE ( 'NONE', *, *, #286, .F. ) ;
#286 = EDGE_CURVE ( 'NONE', #17, #189, #76, .T. ) ;
#287 = VECTOR ( 'NONE', #61, 1000.000000000000000 ) ;
#288 = ORIENTED_EDGE ( 'NONE', *, *, #185, .F. ) ;
#289 = APPROVAL_STATUS ( 'not_yet_approved' ) ;
#290 = VERTEX_POINT ( 'NONE', #2 ) ;
#291 = PERSON_AND_ORGANIZATION_ROLE ( 'design_owner' ) ;
#292 = VECTOR ( 'NONE', #74, 1000.000000000000114 ) ;
#293 = ORIENTED_EDGE ( 'NONE', *, *, #139, .T. ) ;
#294 = EDGE_CURVE ( 'NONE', #240, #7, #144, .T. ) ;
#295 = DIRECTION ( 'NONE',  ( 0.000000000000000000, 0.000000000000000000, 1.000000000000000000 ) ) ;
#296 = CARTESIAN_POINT ( 'NONE',  ( 6.349999999999998757, 6.349999999999998757, 6.349999999999999645 ) ) ;
#297 = DIRECTION ( 'NONE',  ( 0.000000000000000000, 0.000000000000000000, -1.000000000000000000 ) ) ;
#298 = EDGE_LOOP ( 'NONE', ( #222, #164, #39 ) ) ;
#299 = DIRECTION ( 'NONE',  ( 1.000000000000000000, 0.000000000000000000, 0.000000000000000000 ) ) ;
#300 = CC_DESIGN_DATE_AND_TIME_ASSIGNMENT ( #228, #99, ( #33 ) ) ;
#301 = VERTEX_POINT ( 'NONE', #165 ) ;
#302 = AXIS2_PLACEMENT_3D ( 'NONE', #186, #281, #159 ) ;
#303 = FACE_OUTER_BOUND ( 'NONE', #90, .T. ) ;
#304 = DATE_AND_TIME ( #252, #54 ) ;
#305 = DATE_AND_TIME ( #178, #313 ) ;
#306 = DIRECTION ( 'NONE',  ( 0.000000000000000000, 0.000000000000000000, 1.000000000000000000 ) ) ;
#307 = CC_DESIGN_SECURITY_CLASSIFICATION ( #33, ( #121 ) ) ;
#308 = CARTESIAN_POINT ( 'NONE',  ( 6.349999999999996980, 6.349999999999996980, -6.349999999999999645 ) ) ;
#309 = SHAPE_DEFINITION_REPRESENTATION ( #220, #235 ) ;
#310 = CARTESIAN_POINT ( 'NONE',  ( 6.349999999999998757, 6.349999999999998757, -6.349999999999999645 ) ) ;
#311 = CARTESIAN_POINT ( 'NONE',  ( 0.000000000000000000, 0.000000000000000000, -6.349999999999999645 ) ) ;
#312 = FACE_OUTER_BOUND ( 'NONE', #267, .T. ) ;
#313 = LOCAL_TIME ( 11, 12, 1.000000000000000000, #49 ) ;
#314 = DIRECTION ( 'NONE',  ( -0.7071067811865474617, -0.7071067811865474617, 0.000000000000000000 ) ) ;
#315 = ADVANCED_FACE ( 'NONE', ( #19 ), #21, .F. ) ;
#316 = VERTEX_POINT ( 'NONE', #170 ) ;
#317 = DATE_AND_TIME ( #215, #132 ) ;
#318 = ORIENTED_EDGE ( 'NONE', *, *, #282, .T. ) ;
#319 = MECHANICAL_CONTEXT ( 'NONE', #108, 'mechanical' ) ;
#320 = PERSON_AND_ORGANIZATION ( #272, #84 ) ;
#321 = AXIS2_PLACEMENT_3D ( 'NONE', #227, #306, #232 ) ;
ENDSEC;
END-ISO-10303-21;
